ISO-10303-21;
HEADER;
/* Generated by software containing ST-Developer
 * from STEP Tools, Inc. (www.steptools.com) 
 */

FILE_DESCRIPTION(
/* description */ (''),
/* implementation_level */ '2;1');

FILE_NAME(
/* name */ 'Texas_YZR0004 v2.step',
/* time_stamp */ '2023-07-13T22:54:44+02:00',
/* author */ (''),
/* organization */ (''),
/* preprocessor_version */ 'ST-DEVELOPER v19.2',
/* originating_system */ 'Autodesk Translation Framework v12.6.0.85',
/* authorisation */ '');

FILE_SCHEMA (('AUTOMOTIVE_DESIGN { 1 0 10303 214 3 1 1 }'));
ENDSEC;

DATA;
#10=MECHANICAL_DESIGN_GEOMETRIC_PRESENTATION_REPRESENTATION('',(#228,#229,
#230,#231,#232,#233,#234,#235,#236),#441);
#11=SHAPE_REPRESENTATION_RELATIONSHIP('SRR','None',#448,#12);
#12=ADVANCED_BREP_SHAPE_REPRESENTATION('',(#13),#440);
#13=MANIFOLD_SOLID_BREP('Body1',#253);
#14=FACE_BOUND('',#90,.T.);
#15=FACE_BOUND('',#91,.T.);
#16=FACE_BOUND('',#92,.T.);
#17=FACE_BOUND('',#93,.T.);
#18=LINE('',#403,#36);
#19=LINE('',#405,#37);
#20=LINE('',#407,#38);
#21=LINE('',#408,#39);
#22=LINE('',#411,#40);
#23=LINE('',#412,#41);
#24=LINE('',#415,#42);
#25=LINE('',#417,#43);
#26=LINE('',#419,#44);
#27=LINE('',#420,#45);
#28=LINE('',#423,#46);
#29=LINE('',#425,#47);
#30=LINE('',#426,#48);
#31=LINE('',#429,#49);
#32=LINE('',#430,#50);
#33=LINE('',#433,#51);
#34=LINE('',#434,#52);
#35=LINE('',#436,#53);
#36=VECTOR('',#339,10.);
#37=VECTOR('',#340,10.);
#38=VECTOR('',#341,10.);
#39=VECTOR('',#342,10.);
#40=VECTOR('',#345,10.);
#41=VECTOR('',#346,10.);
#42=VECTOR('',#349,10.);
#43=VECTOR('',#350,10.);
#44=VECTOR('',#351,10.);
#45=VECTOR('',#352,10.);
#46=VECTOR('',#355,10.);
#47=VECTOR('',#356,10.);
#48=VECTOR('',#357,10.);
#49=VECTOR('',#360,10.);
#50=VECTOR('',#361,10.);
#51=VECTOR('',#364,10.);
#52=VECTOR('',#365,10.);
#53=VECTOR('',#368,10.);
#54=SPHERICAL_SURFACE('',#269,0.1575);
#55=SPHERICAL_SURFACE('',#274,0.1575);
#56=SPHERICAL_SURFACE('',#279,0.1575);
#57=SPHERICAL_SURFACE('',#284,0.1575);
#58=FACE_OUTER_BOUND('',#74,.T.);
#59=FACE_OUTER_BOUND('',#75,.T.);
#60=FACE_OUTER_BOUND('',#76,.T.);
#61=FACE_OUTER_BOUND('',#77,.T.);
#62=FACE_OUTER_BOUND('',#78,.T.);
#63=FACE_OUTER_BOUND('',#79,.T.);
#64=FACE_OUTER_BOUND('',#80,.T.);
#65=FACE_OUTER_BOUND('',#81,.T.);
#66=FACE_OUTER_BOUND('',#82,.T.);
#67=FACE_OUTER_BOUND('',#83,.T.);
#68=FACE_OUTER_BOUND('',#84,.T.);
#69=FACE_OUTER_BOUND('',#85,.T.);
#70=FACE_OUTER_BOUND('',#86,.T.);
#71=FACE_OUTER_BOUND('',#87,.T.);
#72=FACE_OUTER_BOUND('',#88,.T.);
#73=FACE_OUTER_BOUND('',#89,.T.);
#74=EDGE_LOOP('',(#156));
#75=EDGE_LOOP('',(#157,#158,#159,#160));
#76=EDGE_LOOP('',(#161));
#77=EDGE_LOOP('',(#162,#163,#164,#165));
#78=EDGE_LOOP('',(#166));
#79=EDGE_LOOP('',(#167,#168,#169,#170));
#80=EDGE_LOOP('',(#171));
#81=EDGE_LOOP('',(#172,#173,#174,#175));
#82=EDGE_LOOP('',(#176,#177,#178,#179));
#83=EDGE_LOOP('',(#180,#181,#182));
#84=EDGE_LOOP('',(#183,#184,#185,#186,#187));
#85=EDGE_LOOP('',(#188,#189,#190,#191,#192,#193));
#86=EDGE_LOOP('',(#194,#195,#196,#197));
#87=EDGE_LOOP('',(#198,#199,#200,#201,#202,#203));
#88=EDGE_LOOP('',(#204,#205,#206,#207));
#89=EDGE_LOOP('',(#208,#209,#210,#211));
#90=EDGE_LOOP('',(#212));
#91=EDGE_LOOP('',(#213));
#92=EDGE_LOOP('',(#214));
#93=EDGE_LOOP('',(#215));
#94=CIRCLE('',#268,0.102011028815516);
#95=CIRCLE('',#270,0.102011028815516);
#96=CIRCLE('',#271,0.1575);
#97=CIRCLE('',#273,0.102011028815516);
#98=CIRCLE('',#275,0.102011028815516);
#99=CIRCLE('',#276,0.1575);
#100=CIRCLE('',#278,0.102011028815516);
#101=CIRCLE('',#280,0.102011028815516);
#102=CIRCLE('',#281,0.1575);
#103=CIRCLE('',#283,0.102011028815516);
#104=CIRCLE('',#285,0.102011028815516);
#105=CIRCLE('',#286,0.1575);
#106=VERTEX_POINT('',#373);
#107=VERTEX_POINT('',#376);
#108=VERTEX_POINT('',#380);
#109=VERTEX_POINT('',#383);
#110=VERTEX_POINT('',#387);
#111=VERTEX_POINT('',#390);
#112=VERTEX_POINT('',#394);
#113=VERTEX_POINT('',#397);
#114=VERTEX_POINT('',#401);
#115=VERTEX_POINT('',#402);
#116=VERTEX_POINT('',#404);
#117=VERTEX_POINT('',#406);
#118=VERTEX_POINT('',#410);
#119=VERTEX_POINT('',#414);
#120=VERTEX_POINT('',#416);
#121=VERTEX_POINT('',#418);
#122=VERTEX_POINT('',#422);
#123=VERTEX_POINT('',#424);
#124=VERTEX_POINT('',#428);
#125=VERTEX_POINT('',#432);
#126=EDGE_CURVE('',#106,#106,#94,.T.);
#127=EDGE_CURVE('',#107,#107,#95,.T.);
#128=EDGE_CURVE('',#107,#106,#96,.T.);
#129=EDGE_CURVE('',#108,#108,#97,.T.);
#130=EDGE_CURVE('',#109,#109,#98,.T.);
#131=EDGE_CURVE('',#109,#108,#99,.T.);
#132=EDGE_CURVE('',#110,#110,#100,.T.);
#133=EDGE_CURVE('',#111,#111,#101,.T.);
#134=EDGE_CURVE('',#111,#110,#102,.T.);
#135=EDGE_CURVE('',#112,#112,#103,.T.);
#136=EDGE_CURVE('',#113,#113,#104,.T.);
#137=EDGE_CURVE('',#113,#112,#105,.T.);
#138=EDGE_CURVE('',#114,#115,#18,.T.);
#139=EDGE_CURVE('',#116,#114,#19,.T.);
#140=EDGE_CURVE('',#116,#117,#20,.T.);
#141=EDGE_CURVE('',#115,#117,#21,.T.);
#142=EDGE_CURVE('',#117,#118,#22,.T.);
#143=EDGE_CURVE('',#118,#116,#23,.T.);
#144=EDGE_CURVE('',#115,#119,#24,.T.);
#145=EDGE_CURVE('',#119,#120,#25,.T.);
#146=EDGE_CURVE('',#120,#121,#26,.T.);
#147=EDGE_CURVE('',#121,#114,#27,.T.);
#148=EDGE_CURVE('',#122,#118,#28,.T.);
#149=EDGE_CURVE('',#122,#123,#29,.T.);
#150=EDGE_CURVE('',#123,#119,#30,.T.);
#151=EDGE_CURVE('',#123,#124,#31,.T.);
#152=EDGE_CURVE('',#124,#120,#32,.T.);
#153=EDGE_CURVE('',#125,#121,#33,.T.);
#154=EDGE_CURVE('',#125,#122,#34,.T.);
#155=EDGE_CURVE('',#124,#125,#35,.T.);
#156=ORIENTED_EDGE('',*,*,#126,.F.);
#157=ORIENTED_EDGE('',*,*,#127,.F.);
#158=ORIENTED_EDGE('',*,*,#128,.T.);
#159=ORIENTED_EDGE('',*,*,#126,.T.);
#160=ORIENTED_EDGE('',*,*,#128,.F.);
#161=ORIENTED_EDGE('',*,*,#129,.F.);
#162=ORIENTED_EDGE('',*,*,#130,.F.);
#163=ORIENTED_EDGE('',*,*,#131,.T.);
#164=ORIENTED_EDGE('',*,*,#129,.T.);
#165=ORIENTED_EDGE('',*,*,#131,.F.);
#166=ORIENTED_EDGE('',*,*,#132,.F.);
#167=ORIENTED_EDGE('',*,*,#133,.F.);
#168=ORIENTED_EDGE('',*,*,#134,.T.);
#169=ORIENTED_EDGE('',*,*,#132,.T.);
#170=ORIENTED_EDGE('',*,*,#134,.F.);
#171=ORIENTED_EDGE('',*,*,#135,.F.);
#172=ORIENTED_EDGE('',*,*,#136,.F.);
#173=ORIENTED_EDGE('',*,*,#137,.T.);
#174=ORIENTED_EDGE('',*,*,#135,.T.);
#175=ORIENTED_EDGE('',*,*,#137,.F.);
#176=ORIENTED_EDGE('',*,*,#138,.F.);
#177=ORIENTED_EDGE('',*,*,#139,.F.);
#178=ORIENTED_EDGE('',*,*,#140,.T.);
#179=ORIENTED_EDGE('',*,*,#141,.F.);
#180=ORIENTED_EDGE('',*,*,#142,.F.);
#181=ORIENTED_EDGE('',*,*,#140,.F.);
#182=ORIENTED_EDGE('',*,*,#143,.F.);
#183=ORIENTED_EDGE('',*,*,#138,.T.);
#184=ORIENTED_EDGE('',*,*,#144,.T.);
#185=ORIENTED_EDGE('',*,*,#145,.T.);
#186=ORIENTED_EDGE('',*,*,#146,.T.);
#187=ORIENTED_EDGE('',*,*,#147,.T.);
#188=ORIENTED_EDGE('',*,*,#141,.T.);
#189=ORIENTED_EDGE('',*,*,#142,.T.);
#190=ORIENTED_EDGE('',*,*,#148,.F.);
#191=ORIENTED_EDGE('',*,*,#149,.T.);
#192=ORIENTED_EDGE('',*,*,#150,.T.);
#193=ORIENTED_EDGE('',*,*,#144,.F.);
#194=ORIENTED_EDGE('',*,*,#151,.T.);
#195=ORIENTED_EDGE('',*,*,#152,.T.);
#196=ORIENTED_EDGE('',*,*,#145,.F.);
#197=ORIENTED_EDGE('',*,*,#150,.F.);
#198=ORIENTED_EDGE('',*,*,#139,.T.);
#199=ORIENTED_EDGE('',*,*,#147,.F.);
#200=ORIENTED_EDGE('',*,*,#153,.F.);
#201=ORIENTED_EDGE('',*,*,#154,.T.);
#202=ORIENTED_EDGE('',*,*,#148,.T.);
#203=ORIENTED_EDGE('',*,*,#143,.T.);
#204=ORIENTED_EDGE('',*,*,#155,.T.);
#205=ORIENTED_EDGE('',*,*,#153,.T.);
#206=ORIENTED_EDGE('',*,*,#146,.F.);
#207=ORIENTED_EDGE('',*,*,#152,.F.);
#208=ORIENTED_EDGE('',*,*,#155,.F.);
#209=ORIENTED_EDGE('',*,*,#151,.F.);
#210=ORIENTED_EDGE('',*,*,#149,.F.);
#211=ORIENTED_EDGE('',*,*,#154,.F.);
#212=ORIENTED_EDGE('',*,*,#127,.T.);
#213=ORIENTED_EDGE('',*,*,#130,.T.);
#214=ORIENTED_EDGE('',*,*,#133,.T.);
#215=ORIENTED_EDGE('',*,*,#136,.T.);
#216=PLANE('',#267);
#217=PLANE('',#272);
#218=PLANE('',#277);
#219=PLANE('',#282);
#220=PLANE('',#287);
#221=PLANE('',#288);
#222=PLANE('',#289);
#223=PLANE('',#290);
#224=PLANE('',#291);
#225=PLANE('',#292);
#226=PLANE('',#293);
#227=PLANE('',#294);
#228=STYLED_ITEM('',(#459),#237);
#229=STYLED_ITEM('',(#459),#238);
#230=STYLED_ITEM('',(#459),#239);
#231=STYLED_ITEM('',(#459),#240);
#232=STYLED_ITEM('',(#459),#241);
#233=STYLED_ITEM('',(#459),#242);
#234=STYLED_ITEM('',(#459),#243);
#235=STYLED_ITEM('',(#459),#244);
#236=STYLED_ITEM('',(#458),#13);
#237=ADVANCED_FACE('',(#58),#216,.F.);
#238=ADVANCED_FACE('',(#59),#54,.T.);
#239=ADVANCED_FACE('',(#60),#217,.F.);
#240=ADVANCED_FACE('',(#61),#55,.T.);
#241=ADVANCED_FACE('',(#62),#218,.F.);
#242=ADVANCED_FACE('',(#63),#56,.T.);
#243=ADVANCED_FACE('',(#64),#219,.F.);
#244=ADVANCED_FACE('',(#65),#57,.T.);
#245=ADVANCED_FACE('',(#66),#220,.F.);
#246=ADVANCED_FACE('',(#67),#221,.F.);
#247=ADVANCED_FACE('',(#68),#222,.T.);
#248=ADVANCED_FACE('',(#69),#223,.T.);
#249=ADVANCED_FACE('',(#70),#224,.T.);
#250=ADVANCED_FACE('',(#71),#225,.T.);
#251=ADVANCED_FACE('',(#72),#226,.T.);
#252=ADVANCED_FACE('',(#73,#14,#15,#16,#17),#227,.F.);
#253=CLOSED_SHELL('',(#237,#238,#239,#240,#241,#242,#243,#244,#245,#246,
#247,#248,#249,#250,#251,#252));
#254=DERIVED_UNIT_ELEMENT(#256,1.);
#255=DERIVED_UNIT_ELEMENT(#443,-3.);
#256=(
MASS_UNIT()
NAMED_UNIT(*)
SI_UNIT(.KILO.,.GRAM.)
);
#257=DERIVED_UNIT((#254,#255));
#258=MEASURE_REPRESENTATION_ITEM('density measure',
POSITIVE_RATIO_MEASURE(1290.),#257);
#259=PROPERTY_DEFINITION_REPRESENTATION(#264,#261);
#260=PROPERTY_DEFINITION_REPRESENTATION(#265,#262);
#261=REPRESENTATION('material name',(#263),#440);
#262=REPRESENTATION('density',(#258),#440);
#263=DESCRIPTIVE_REPRESENTATION_ITEM('Plastic','Plastic');
#264=PROPERTY_DEFINITION('material property','material name',#450);
#265=PROPERTY_DEFINITION('material property','density of part',#450);
#266=AXIS2_PLACEMENT_3D('',#371,#295,#296);
#267=AXIS2_PLACEMENT_3D('',#372,#297,#298);
#268=AXIS2_PLACEMENT_3D('',#374,#299,#300);
#269=AXIS2_PLACEMENT_3D('',#375,#301,#302);
#270=AXIS2_PLACEMENT_3D('',#377,#303,#304);
#271=AXIS2_PLACEMENT_3D('',#378,#305,#306);
#272=AXIS2_PLACEMENT_3D('',#379,#307,#308);
#273=AXIS2_PLACEMENT_3D('',#381,#309,#310);
#274=AXIS2_PLACEMENT_3D('',#382,#311,#312);
#275=AXIS2_PLACEMENT_3D('',#384,#313,#314);
#276=AXIS2_PLACEMENT_3D('',#385,#315,#316);
#277=AXIS2_PLACEMENT_3D('',#386,#317,#318);
#278=AXIS2_PLACEMENT_3D('',#388,#319,#320);
#279=AXIS2_PLACEMENT_3D('',#389,#321,#322);
#280=AXIS2_PLACEMENT_3D('',#391,#323,#324);
#281=AXIS2_PLACEMENT_3D('',#392,#325,#326);
#282=AXIS2_PLACEMENT_3D('',#393,#327,#328);
#283=AXIS2_PLACEMENT_3D('',#395,#329,#330);
#284=AXIS2_PLACEMENT_3D('',#396,#331,#332);
#285=AXIS2_PLACEMENT_3D('',#398,#333,#334);
#286=AXIS2_PLACEMENT_3D('',#399,#335,#336);
#287=AXIS2_PLACEMENT_3D('',#400,#337,#338);
#288=AXIS2_PLACEMENT_3D('',#409,#343,#344);
#289=AXIS2_PLACEMENT_3D('',#413,#347,#348);
#290=AXIS2_PLACEMENT_3D('',#421,#353,#354);
#291=AXIS2_PLACEMENT_3D('',#427,#358,#359);
#292=AXIS2_PLACEMENT_3D('',#431,#362,#363);
#293=AXIS2_PLACEMENT_3D('',#435,#366,#367);
#294=AXIS2_PLACEMENT_3D('',#437,#369,#370);
#295=DIRECTION('axis',(0.,0.,1.));
#296=DIRECTION('refdir',(1.,0.,0.));
#297=DIRECTION('center_axis',(0.,0.,1.));
#298=DIRECTION('ref_axis',(1.,0.,0.));
#299=DIRECTION('center_axis',(0.,0.,1.));
#300=DIRECTION('ref_axis',(0.,1.,0.));
#301=DIRECTION('center_axis',(0.,0.,1.));
#302=DIRECTION('ref_axis',(1.,0.,0.));
#303=DIRECTION('center_axis',(0.,0.,1.));
#304=DIRECTION('ref_axis',(0.,-1.,0.));
#305=DIRECTION('center_axis',(2.20282346155785E-16,-1.,0.));
#306=DIRECTION('ref_axis',(-1.,-2.20282346155785E-16,0.));
#307=DIRECTION('center_axis',(0.,0.,1.));
#308=DIRECTION('ref_axis',(1.,0.,0.));
#309=DIRECTION('center_axis',(0.,0.,1.));
#310=DIRECTION('ref_axis',(0.,1.,0.));
#311=DIRECTION('center_axis',(0.,0.,1.));
#312=DIRECTION('ref_axis',(1.,0.,0.));
#313=DIRECTION('center_axis',(0.,0.,1.));
#314=DIRECTION('ref_axis',(0.,-1.,0.));
#315=DIRECTION('center_axis',(2.20282346155785E-16,-1.,0.));
#316=DIRECTION('ref_axis',(-1.,-2.20282346155785E-16,0.));
#317=DIRECTION('center_axis',(0.,0.,1.));
#318=DIRECTION('ref_axis',(1.,0.,0.));
#319=DIRECTION('center_axis',(0.,0.,1.));
#320=DIRECTION('ref_axis',(0.,1.,0.));
#321=DIRECTION('center_axis',(0.,0.,1.));
#322=DIRECTION('ref_axis',(1.,0.,0.));
#323=DIRECTION('center_axis',(0.,0.,1.));
#324=DIRECTION('ref_axis',(0.,-1.,0.));
#325=DIRECTION('center_axis',(2.20282346155785E-16,-1.,0.));
#326=DIRECTION('ref_axis',(-1.,-2.20282346155785E-16,0.));
#327=DIRECTION('center_axis',(0.,0.,1.));
#328=DIRECTION('ref_axis',(1.,0.,0.));
#329=DIRECTION('center_axis',(0.,0.,1.));
#330=DIRECTION('ref_axis',(0.,1.,0.));
#331=DIRECTION('center_axis',(0.,0.,1.));
#332=DIRECTION('ref_axis',(1.,0.,0.));
#333=DIRECTION('center_axis',(0.,0.,1.));
#334=DIRECTION('ref_axis',(0.,-1.,0.));
#335=DIRECTION('center_axis',(2.20282346155785E-16,-1.,0.));
#336=DIRECTION('ref_axis',(-1.,-2.20282346155785E-16,0.));
#337=DIRECTION('center_axis',(0.707106781186548,-0.707106781186547,0.));
#338=DIRECTION('ref_axis',(-0.707106781186547,-0.707106781186548,0.));
#339=DIRECTION('',(-0.707106781186547,-0.707106781186548,0.));
#340=DIRECTION('',(0.,0.,1.));
#341=DIRECTION('',(-0.707106781186547,-0.707106781186548,0.));
#342=DIRECTION('',(0.,0.,-1.));
#343=DIRECTION('center_axis',(0.,0.,-1.));
#344=DIRECTION('ref_axis',(-1.,0.,0.));
#345=DIRECTION('',(1.5722569268672E-16,1.,0.));
#346=DIRECTION('',(1.,0.,0.));
#347=DIRECTION('center_axis',(0.,0.,1.));
#348=DIRECTION('ref_axis',(1.,0.,0.));
#349=DIRECTION('',(-1.5722569268672E-16,-1.,0.));
#350=DIRECTION('',(1.,0.,0.));
#351=DIRECTION('',(0.,1.,0.));
#352=DIRECTION('',(-1.,0.,0.));
#353=DIRECTION('center_axis',(-1.,1.5722569268672E-16,0.));
#354=DIRECTION('ref_axis',(-1.5722569268672E-16,-1.,0.));
#355=DIRECTION('',(0.,0.,1.));
#356=DIRECTION('',(-1.5722569268672E-16,-1.,0.));
#357=DIRECTION('',(0.,0.,1.));
#358=DIRECTION('center_axis',(0.,-1.,0.));
#359=DIRECTION('ref_axis',(1.,0.,0.));
#360=DIRECTION('',(1.,0.,0.));
#361=DIRECTION('',(0.,0.,1.));
#362=DIRECTION('center_axis',(0.,1.,0.));
#363=DIRECTION('ref_axis',(-1.,0.,0.));
#364=DIRECTION('',(0.,0.,1.));
#365=DIRECTION('',(-1.,0.,0.));
#366=DIRECTION('center_axis',(1.,0.,0.));
#367=DIRECTION('ref_axis',(0.,1.,0.));
#368=DIRECTION('',(0.,1.,0.));
#369=DIRECTION('center_axis',(0.,0.,1.));
#370=DIRECTION('ref_axis',(1.,0.,0.));
#371=CARTESIAN_POINT('',(0.,0.,0.));
#372=CARTESIAN_POINT('Origin',(0.25,0.25,0.));
#373=CARTESIAN_POINT('',(0.147988971184484,0.25,0.));
#374=CARTESIAN_POINT('Origin',(0.25,0.25,0.));
#375=CARTESIAN_POINT('Origin',(0.25,0.25,0.12));
#376=CARTESIAN_POINT('',(0.147988971184484,0.25,0.24));
#377=CARTESIAN_POINT('Origin',(0.25,0.25,0.24));
#378=CARTESIAN_POINT('Origin',(0.25,0.25,0.12));
#379=CARTESIAN_POINT('Origin',(0.25,-0.25,0.));
#380=CARTESIAN_POINT('',(0.147988971184484,-0.25,0.));
#381=CARTESIAN_POINT('Origin',(0.25,-0.25,0.));
#382=CARTESIAN_POINT('Origin',(0.25,-0.25,0.12));
#383=CARTESIAN_POINT('',(0.147988971184484,-0.25,0.24));
#384=CARTESIAN_POINT('Origin',(0.25,-0.25,0.24));
#385=CARTESIAN_POINT('Origin',(0.25,-0.25,0.12));
#386=CARTESIAN_POINT('Origin',(-0.25,-0.25,0.));
#387=CARTESIAN_POINT('',(-0.352011028815516,-0.25,0.));
#388=CARTESIAN_POINT('Origin',(-0.25,-0.25,0.));
#389=CARTESIAN_POINT('Origin',(-0.25,-0.25,0.12));
#390=CARTESIAN_POINT('',(-0.352011028815516,-0.25,0.24));
#391=CARTESIAN_POINT('Origin',(-0.25,-0.25,0.24));
#392=CARTESIAN_POINT('Origin',(-0.25,-0.25,0.12));
#393=CARTESIAN_POINT('Origin',(-0.25,0.25,0.));
#394=CARTESIAN_POINT('',(-0.352011028815516,0.25,0.));
#395=CARTESIAN_POINT('Origin',(-0.25,0.25,0.));
#396=CARTESIAN_POINT('Origin',(-0.25,0.25,0.12));
#397=CARTESIAN_POINT('',(-0.352011028815516,0.25,0.24));
#398=CARTESIAN_POINT('Origin',(-0.25,0.25,0.24));
#399=CARTESIAN_POINT('Origin',(-0.25,0.25,0.12));
#400=CARTESIAN_POINT('Origin',(-0.2725,0.662,0.6));
#401=CARTESIAN_POINT('',(-0.2725,0.662,0.6));
#402=CARTESIAN_POINT('',(-0.5225,0.412,0.6));
#403=CARTESIAN_POINT('',(-0.369875,0.564625,0.6));
#404=CARTESIAN_POINT('',(-0.2725,0.662,0.55));
#405=CARTESIAN_POINT('',(-0.2725,0.662,0.42));
#406=CARTESIAN_POINT('',(-0.5225,0.412,0.55));
#407=CARTESIAN_POINT('',(-0.5225,0.412,0.55));
#408=CARTESIAN_POINT('',(-0.5225,0.412,0.42));
#409=CARTESIAN_POINT('Origin',(-0.3975,0.537,0.55));
#410=CARTESIAN_POINT('',(-0.5225,0.662,0.55));
#411=CARTESIAN_POINT('',(-0.5225,0.5995,0.55));
#412=CARTESIAN_POINT('',(0.0625000000000001,0.662,0.55));
#413=CARTESIAN_POINT('Origin',(6.93889390390723E-17,-1.38777878078145E-16,
0.6));
#414=CARTESIAN_POINT('',(-0.5225,-0.662,0.6));
#415=CARTESIAN_POINT('',(-0.5225,0.662,0.6));
#416=CARTESIAN_POINT('',(0.5225,-0.662,0.6));
#417=CARTESIAN_POINT('',(-0.5225,-0.662,0.6));
#418=CARTESIAN_POINT('',(0.5225,0.662,0.6));
#419=CARTESIAN_POINT('',(0.5225,-0.662,0.6));
#420=CARTESIAN_POINT('',(0.5225,0.662,0.6));
#421=CARTESIAN_POINT('Origin',(-0.5225,0.662,0.24));
#422=CARTESIAN_POINT('',(-0.5225,0.662,0.24));
#423=CARTESIAN_POINT('',(-0.5225,0.662,0.24));
#424=CARTESIAN_POINT('',(-0.5225,-0.662,0.24));
#425=CARTESIAN_POINT('',(-0.5225,0.662,0.24));
#426=CARTESIAN_POINT('',(-0.5225,-0.662,0.24));
#427=CARTESIAN_POINT('Origin',(-0.5225,-0.662,0.24));
#428=CARTESIAN_POINT('',(0.5225,-0.662,0.24));
#429=CARTESIAN_POINT('',(-0.5225,-0.662,0.24));
#430=CARTESIAN_POINT('',(0.5225,-0.662,0.24));
#431=CARTESIAN_POINT('Origin',(0.5225,0.662,0.24));
#432=CARTESIAN_POINT('',(0.5225,0.662,0.24));
#433=CARTESIAN_POINT('',(0.5225,0.662,0.24));
#434=CARTESIAN_POINT('',(0.5225,0.662,0.24));
#435=CARTESIAN_POINT('Origin',(0.5225,-0.662,0.24));
#436=CARTESIAN_POINT('',(0.5225,-0.662,0.24));
#437=CARTESIAN_POINT('Origin',(6.93889390390723E-17,-1.38777878078145E-16,
0.24));
#438=UNCERTAINTY_MEASURE_WITH_UNIT(LENGTH_MEASURE(0.01),#442,
'DISTANCE_ACCURACY_VALUE',
'Maximum model space distance between geometric entities at asserted c
onnectivities');
#439=UNCERTAINTY_MEASURE_WITH_UNIT(LENGTH_MEASURE(0.01),#442,
'DISTANCE_ACCURACY_VALUE',
'Maximum model space distance between geometric entities at asserted c
onnectivities');
#440=(
GEOMETRIC_REPRESENTATION_CONTEXT(3)
GLOBAL_UNCERTAINTY_ASSIGNED_CONTEXT((#438))
GLOBAL_UNIT_ASSIGNED_CONTEXT((#442,#444,#445))
REPRESENTATION_CONTEXT('','3D')
);
#441=(
GEOMETRIC_REPRESENTATION_CONTEXT(3)
GLOBAL_UNCERTAINTY_ASSIGNED_CONTEXT((#439))
GLOBAL_UNIT_ASSIGNED_CONTEXT((#442,#444,#445))
REPRESENTATION_CONTEXT('','3D')
);
#442=(
LENGTH_UNIT()
NAMED_UNIT(*)
SI_UNIT(.MILLI.,.METRE.)
);
#443=(
LENGTH_UNIT()
NAMED_UNIT(*)
SI_UNIT($,.METRE.)
);
#444=(
NAMED_UNIT(*)
PLANE_ANGLE_UNIT()
SI_UNIT($,.RADIAN.)
);
#445=(
NAMED_UNIT(*)
SI_UNIT($,.STERADIAN.)
SOLID_ANGLE_UNIT()
);
#446=SHAPE_DEFINITION_REPRESENTATION(#447,#448);
#447=PRODUCT_DEFINITION_SHAPE('',$,#450);
#448=SHAPE_REPRESENTATION('',(#266),#440);
#449=PRODUCT_DEFINITION_CONTEXT('part definition',#454,'design');
#450=PRODUCT_DEFINITION('Texas_YZR0004','Texas_YZR0004 v2',#451,#449);
#451=PRODUCT_DEFINITION_FORMATION('',$,#456);
#452=PRODUCT_RELATED_PRODUCT_CATEGORY('Texas_YZR0004 v2',
'Texas_YZR0004 v2',(#456));
#453=APPLICATION_PROTOCOL_DEFINITION('international standard',
'automotive_design',2009,#454);
#454=APPLICATION_CONTEXT(
'Core Data for Automotive Mechanical Design Process');
#455=PRODUCT_CONTEXT('part definition',#454,'mechanical');
#456=PRODUCT('Texas_YZR0004','Texas_YZR0004 v2',$,(#455));
#457=PRESENTATION_STYLE_ASSIGNMENT((#460));
#458=PRESENTATION_STYLE_ASSIGNMENT((#461));
#459=PRESENTATION_STYLE_ASSIGNMENT((#462));
#460=SURFACE_STYLE_USAGE(.BOTH.,#463);
#461=SURFACE_STYLE_USAGE(.BOTH.,#464);
#462=SURFACE_STYLE_USAGE(.BOTH.,#465);
#463=SURFACE_SIDE_STYLE('',(#466));
#464=SURFACE_SIDE_STYLE('',(#467));
#465=SURFACE_SIDE_STYLE('',(#468));
#466=SURFACE_STYLE_FILL_AREA(#469);
#467=SURFACE_STYLE_FILL_AREA(#470);
#468=SURFACE_STYLE_FILL_AREA(#471);
#469=FILL_AREA_STYLE('Plastic - Glossy (Grey)',(#472));
#470=FILL_AREA_STYLE('Base Material - Opaque',(#473));
#471=FILL_AREA_STYLE('Base Material - Metal',(#474));
#472=FILL_AREA_STYLE_COLOUR('Plastic - Glossy (Grey)',#475);
#473=FILL_AREA_STYLE_COLOUR('Base Material - Opaque',#476);
#474=FILL_AREA_STYLE_COLOUR('Base Material - Metal',#477);
#475=COLOUR_RGB('Plastic - Glossy (Grey)',0.701960784313725,0.701960784313725,
0.701960784313725);
#476=COLOUR_RGB('Base Material - Opaque',0.215686274509804,0.215686274509804,
0.215686274509804);
#477=COLOUR_RGB('Base Material - Metal',0.909803921568627,0.917647058823529,
0.92156862745098);
ENDSEC;
END-ISO-10303-21;
